ISO-10303-21;
HEADER;
FILE_DESCRIPTION (( 'STEP AP203' ),
    '1' );
FILE_NAME ('Q-QZWP-R4-12.7-852-M.STEP',
    '2020-12-23T01:24:31',
    ( '' ),
    ( '' ),
    'SwSTEP 2.0',
    'SolidWorks 2020',
    '' );
FILE_SCHEMA (( 'CONFIG_CONTROL_DESIGN' ));
ENDSEC;

DATA;
#1 = CYLINDRICAL_SURFACE ( 'NONE', #218, 6.349999999999999645 ) ;
#2 = ORIENTED_EDGE ( 'NONE', *, *, #66, .T. ) ;
#3 = CIRCLE ( 'NONE', #153, 12.69999999999999929 ) ;
#4 = ADVANCED_FACE ( 'NONE', ( #188 ), #314, .F. ) ;
#5 = LINE ( 'NONE', #108, #291 ) ;
#6 = DIRECTION ( 'NONE',  ( -1.000000000000000000, -0.000000000000000000, -0.000000000000000000 ) ) ;
#7 = CARTESIAN_POINT ( 'NONE',  ( 1.500000000000000888, 0.000000000000000000, 6.349999999999999645 ) ) ;
#8 = EDGE_LOOP ( 'NONE', ( #263, #84, #306, #286 ) ) ;
#9 = LINE ( 'NONE', #31, #14 ) ;
#10 = CIRCLE ( 'NONE', #198, 6.349999999999999645 ) ;
#11 = DIRECTION ( 'NONE',  ( 0.000000000000000000, 0.000000000000000000, 1.000000000000000000 ) ) ;
#12 = DIRECTION ( 'NONE',  ( 0.000000000000000000, 0.000000000000000000, -1.000000000000000000 ) ) ;
#13 = DIRECTION ( 'NONE',  ( 0.000000000000000000, 0.000000000000000000, 1.000000000000000000 ) ) ;
#14 = VECTOR ( 'NONE', #293, 1000.000000000000000 ) ;
#15 = DIRECTION ( 'NONE',  ( -1.000000000000000000, 0.000000000000000000, -0.000000000000000000 ) ) ;
#16 = ORIENTED_EDGE ( 'NONE', *, *, #147, .T. ) ;
#17 = CARTESIAN_POINT ( 'NONE',  ( -1.500000000000000444, 6.349999999999999645, 0.000000000000000000 ) ) ;
#18 = DIRECTION ( 'NONE',  ( 0.000000000000000000, 0.000000000000000000, 1.000000000000000000 ) ) ;
#19 = APPLICATION_PROTOCOL_DEFINITION ( 'international standard', 'config_control_design', 1994, #113 ) ;
#20 = APPROVAL_DATE_TIME ( #329, #320 ) ;
#21 = VERTEX_POINT ( 'NONE', #139 ) ;
#22 = PERSON_AND_ORGANIZATION_ROLE ( 'classification_officer' ) ;
#23 = ORIENTED_EDGE ( 'NONE', *, *, #184, .F. ) ;
#24 = APPROVAL_STATUS ( 'not_yet_approved' ) ;
#25 = ORIENTED_EDGE ( 'NONE', *, *, #315, .F. ) ;
#26 = AXIS2_PLACEMENT_3D ( 'NONE', #239, #6, #29 ) ;
#27 = DIRECTION ( 'NONE',  ( 0.000000000000000000, 0.000000000000000000, 1.000000000000000000 ) ) ;
#28 = EDGE_LOOP ( 'NONE', ( #127, #278, #58, #242 ) ) ;
#29 = DIRECTION ( 'NONE',  ( 0.000000000000000000, 0.000000000000000000, 1.000000000000000000 ) ) ;
#30 = CC_DESIGN_DATE_AND_TIME_ASSIGNMENT ( #48, #283, ( #136 ) ) ;
#31 = CARTESIAN_POINT ( 'NONE',  ( -1.614212418857619014, 7.776507174585692163E-16, -6.349999999999999645 ) ) ;
#32 = CARTESIAN_POINT ( 'NONE',  ( -1.614212418857619014, 0.000000000000000000, 0.000000000000000000 ) ) ;
#33 = DIRECTION ( 'NONE',  ( -1.000000000000000000, -0.000000000000000000, -0.000000000000000000 ) ) ;
#34 = ORIENTED_EDGE ( 'NONE', *, *, #54, .F. ) ;
#35 = DIRECTION ( 'NONE',  ( 0.000000000000000000, 0.000000000000000000, 1.000000000000000000 ) ) ;
#36 = AXIS2_PLACEMENT_3D ( 'NONE', #176, #253, #18 ) ;
#37 = LOCAL_TIME ( 9, 24, 31.00000000000000000, #47 ) ;
#38 = DIRECTION ( 'NONE',  ( -1.000000000000000000, -0.000000000000000000, -0.000000000000000000 ) ) ;
#39 = EDGE_CURVE ( 'NONE', #96, #233, #91, .T. ) ;
#40 = CC_DESIGN_DATE_AND_TIME_ASSIGNMENT ( #50, #254, ( #256 ) ) ;
#41 = DIRECTION ( 'NONE',  ( -1.000000000000000000, -0.000000000000000000, -0.000000000000000000 ) ) ;
#42 = CARTESIAN_POINT ( 'NONE',  ( -3.000000000000000000, 1.555301434917138433E-15, -12.69999999999999929 ) ) ;
#43 = CARTESIAN_POINT ( 'NONE',  ( -1.500000000000000444, 0.000000000000000000, 6.349999999999999645 ) ) ;
#44 = EDGE_CURVE ( 'NONE', #178, #318, #284, .T. ) ;
#45 = FACE_OUTER_BOUND ( 'NONE', #197, .T. ) ;
#46 = LOCAL_TIME ( 9, 24, 31.00000000000000000, #73 ) ;
#47 = COORDINATED_UNIVERSAL_TIME_OFFSET ( 8, 0, .AHEAD. ) ;
#48 = DATE_AND_TIME ( #332, #46 ) ;
#49 = VERTEX_POINT ( 'NONE', #145 ) ;
#50 = DATE_AND_TIME ( #130, #173 ) ;
#51 = ORIENTED_EDGE ( 'NONE', *, *, #194, .F. ) ;
#52 = VECTOR ( 'NONE', #161, 1000.000000000000000 ) ;
#53 =( GEOMETRIC_REPRESENTATION_CONTEXT ( 3 ) GLOBAL_UNCERTAINTY_ASSIGNED_CONTEXT ( ( #93 ) ) GLOBAL_UNIT_ASSIGNED_CONTEXT ( ( #322, #150, #227 ) ) REPRESENTATION_CONTEXT ( 'NONE', 'WORKASPACE' ) );
#54 = EDGE_CURVE ( 'NONE', #21, #132, #131, .T. ) ;
#55 = CARTESIAN_POINT ( 'NONE',  ( 3.000000000000000888, 0.000000000000000000, 6.349999999999999645 ) ) ;
#56 = ORIENTED_EDGE ( 'NONE', *, *, #44, .F. ) ;
#57 = CYLINDRICAL_SURFACE ( 'NONE', #179, 12.69999999999999929 ) ;
#58 = ORIENTED_EDGE ( 'NONE', *, *, #187, .T. ) ;
#59 = AXIS2_PLACEMENT_3D ( 'NONE', #276, #15, #98 ) ;
#60 = DIRECTION ( 'NONE',  ( 0.000000000000000000, 0.000000000000000000, 1.000000000000000000 ) ) ;
#61 = DIRECTION ( 'NONE',  ( -1.000000000000000000, -0.000000000000000000, -0.000000000000000000 ) ) ;
#62 = CARTESIAN_POINT ( 'NONE',  ( -3.000000000000000000, 0.000000000000000000, 0.000000000000000000 ) ) ;
#63 = APPROVAL_PERSON_ORGANIZATION ( #231, #320, #123 ) ;
#64 = DESIGN_CONTEXT ( 'detailed design', #134, 'design' ) ;
#65 = DIRECTION ( 'NONE',  ( 0.000000000000000000, 0.000000000000000000, -1.000000000000000000 ) ) ;
#66 = EDGE_CURVE ( 'NONE', #162, #178, #146, .T. ) ;
#67 = CARTESIAN_POINT ( 'NONE',  ( -1.500000000000000444, 0.000000000000000000, 0.000000000000000000 ) ) ;
#68 = DIRECTION ( 'NONE',  ( 1.000000000000000000, 0.000000000000000000, 0.000000000000000000 ) ) ;
#69 = DIRECTION ( 'NONE',  ( 0.000000000000000000, 0.000000000000000000, -1.000000000000000000 ) ) ;
#70 = CIRCLE ( 'NONE', #140, 12.69999999999999929 ) ;
#71 = FACE_BOUND ( 'NONE', #156, .T. ) ;
#72 = PERSON_AND_ORGANIZATION ( #205, #321 ) ;
#73 = COORDINATED_UNIVERSAL_TIME_OFFSET ( 8, 0, .AHEAD. ) ;
#74 = APPROVAL_DATE_TIME ( #183, #240 ) ;
#75 = ORIENTED_EDGE ( 'NONE', *, *, #294, .F. ) ;
#76 = EDGE_LOOP ( 'NONE', ( #133, #34 ) ) ;
#77 = CALENDAR_DATE ( 2020, 23, 12 ) ;
#78 = EDGE_LOOP ( 'NONE', ( #23, #157, #212, #331 ) ) ;
#79 = AXIS2_PLACEMENT_3D ( 'NONE', #85, #292, #270 ) ;
#80 = CARTESIAN_POINT ( 'NONE',  ( -1.500000000000000444, 7.776507174585692163E-16, -6.349999999999999645 ) ) ;
#81 = ORIENTED_EDGE ( 'NONE', *, *, #66, .F. ) ;
#82 = SHAPE_DEFINITION_REPRESENTATION ( #154, #129 ) ;
#83 = FACE_OUTER_BOUND ( 'NONE', #78, .T. ) ;
#84 = ORIENTED_EDGE ( 'NONE', *, *, #174, .T. ) ;
#85 = CARTESIAN_POINT ( 'NONE',  ( 1.500000000000000888, 0.000000000000000000, 0.000000000000000000 ) ) ;
#86 = DIRECTION ( 'NONE',  ( -1.000000000000000000, -0.000000000000000000, -0.000000000000000000 ) ) ;
#87 = PLANE ( 'NONE',  #287 ) ;
#88 = CC_DESIGN_PERSON_AND_ORGANIZATION_ASSIGNMENT ( #261, #285, ( #125 ) ) ;
#89 = DIRECTION ( 'NONE',  ( -1.000000000000000000, -0.000000000000000000, -0.000000000000000000 ) ) ;
#90 = ORIENTED_EDGE ( 'NONE', *, *, #246, .F. ) ;
#91 = CIRCLE ( 'NONE', #26, 6.349999999999999645 ) ;
#92 = AXIS2_PLACEMENT_3D ( 'NONE', #17, #175, #280 ) ;
#93 = UNCERTAINTY_MEASURE_WITH_UNIT (LENGTH_MEASURE( 1.000000000000000082E-05 ), #322, 'distance_accuracy_value', 'NONE');
#94 = LINE ( 'NONE', #296, #117 ) ;
#95 = CARTESIAN_POINT ( 'NONE',  ( 3.000000000000000888, 0.000000000000000000, 0.000000000000000000 ) ) ;
#96 = VERTEX_POINT ( 'NONE', #55 ) ;
#97 = PLANE ( 'NONE',  #92 ) ;
#98 = DIRECTION ( 'NONE',  ( -0.000000000000000000, 0.000000000000000000, 1.000000000000000000 ) ) ;
#99 = APPROVAL_PERSON_ORGANIZATION ( #181, #124, #303 ) ;
#100 = CARTESIAN_POINT ( 'NONE',  ( 0.000000000000000000, 0.000000000000000000, 0.000000000000000000 ) ) ;
#101 = CALENDAR_DATE ( 2020, 23, 12 ) ;
#102 = AXIS2_PLACEMENT_3D ( 'NONE', #62, #238, #11 ) ;
#103 = CC_DESIGN_APPROVAL ( #240, ( #136 ) ) ;
#104 = MECHANICAL_CONTEXT ( 'NONE', #113, 'mechanical' ) ;
#105 = CARTESIAN_POINT ( 'NONE',  ( -1.614212418857619014, 0.000000000000000000, 0.000000000000000000 ) ) ;
#106 = ORIENTED_EDGE ( 'NONE', *, *, #328, .T. ) ;
#107 = ADVANCED_FACE ( 'NONE', ( #243 ), #57, .T. ) ;
#108 = CARTESIAN_POINT ( 'NONE',  ( -1.614212418857619014, 1.555301434917138433E-15, -12.69999999999999929 ) ) ;
#109 = CARTESIAN_POINT ( 'NONE',  ( -2.999999999999999556, 0.000000000000000000, 0.000000000000000000 ) ) ;
#110 = CARTESIAN_POINT ( 'NONE',  ( -1.614212418857619014, 7.776507174585692163E-16, -6.349999999999999645 ) ) ;
#111 = DIRECTION ( 'NONE',  ( -0.000000000000000000, 0.000000000000000000, 1.000000000000000000 ) ) ;
#112 = FACE_OUTER_BOUND ( 'NONE', #312, .T. ) ;
#113 = APPLICATION_CONTEXT ( 'configuration controlled 3d designs of mechanical parts and assemblies' ) ;
#114 = ADVANCED_FACE ( 'NONE', ( #165 ), #1, .F. ) ;
#115 = FACE_OUTER_BOUND ( 'NONE', #8, .T. ) ;
#116 = CLOSED_SHELL ( 'NONE', ( #107, #114, #275, #299, #144, #4, #255, #216, #177, #282 ) ) ;
#117 = VECTOR ( 'NONE', #171, 1000.000000000000000 ) ;
#118 = CARTESIAN_POINT ( 'NONE',  ( 3.000000000000000000, 1.555301434917138433E-15, -12.69999999999999929 ) ) ;
#119 = DIRECTION ( 'NONE',  ( 1.000000000000000000, 0.000000000000000000, 0.000000000000000000 ) ) ;
#120 = FACE_OUTER_BOUND ( 'NONE', #160, .T. ) ;
#121 = EDGE_CURVE ( 'NONE', #310, #49, #273, .T. ) ;
#122 = AXIS2_PLACEMENT_3D ( 'NONE', #109, #210, #244 ) ;
#123 = APPROVAL_ROLE ( '' ) ;
#124 = APPROVAL ( #24, 'UNSPECIFIED' ) ;
#125 = PRODUCT ( 'Q-QZWP-R4-12.7-852-M', 'Q-QZWP-R4-12.7-852-M', '', ( #104 ) ) ;
#126 = APPLICATION_PROTOCOL_DEFINITION ( 'international standard', 'config_control_design', 1994, #134 ) ;
#127 = ORIENTED_EDGE ( 'NONE', *, *, #174, .F. ) ;
#128 = PERSON_AND_ORGANIZATION_ROLE ( 'creator' ) ;
#129 = ADVANCED_BREP_SHAPE_REPRESENTATION ( 'Q-QZWP-R4-12.7-852-M', ( #232, #185 ), #53 ) ;
#130 = CALENDAR_DATE ( 2020, 23, 12 ) ;
#131 = CIRCLE ( 'NONE', #138, 6.349999999999999645 ) ;
#132 = VERTEX_POINT ( 'NONE', #7 ) ;
#133 = ORIENTED_EDGE ( 'NONE', *, *, #199, .F. ) ;
#134 = APPLICATION_CONTEXT ( 'configuration controlled 3d designs of mechanical parts and assemblies' ) ;
#135 = ORIENTED_EDGE ( 'NONE', *, *, #298, .T. ) ;
#136 = PRODUCT_DEFINITION ( 'UNKNOWN', '', #288, #64 ) ;
#137 = LINE ( 'NONE', #192, #52 ) ;
#138 = AXIS2_PLACEMENT_3D ( 'NONE', #241, #61, #35 ) ;
#139 = CARTESIAN_POINT ( 'NONE',  ( 1.500000000000000888, 7.776507174585692163E-16, -6.349999999999999645 ) ) ;
#140 = AXIS2_PLACEMENT_3D ( 'NONE', #170, #41, #250 ) ;
#141 = AXIS2_PLACEMENT_3D ( 'NONE', #95, #89, #196 ) ;
#142 = CARTESIAN_POINT ( 'NONE',  ( -2.999999999999999556, 7.776507174585692163E-16, -6.349999999999999645 ) ) ;
#143 = ORIENTED_EDGE ( 'NONE', *, *, #194, .T. ) ;
#144 = ADVANCED_FACE ( 'NONE', ( #289 ), #311, .F. ) ;
#145 = CARTESIAN_POINT ( 'NONE',  ( 3.000000000000000000, 0.000000000000000000, 12.69999999999999929 ) ) ;
#146 = LINE ( 'NONE', #110, #167 ) ;
#147 = EDGE_CURVE ( 'NONE', #221, #301, #302, .T. ) ;
#148 = EDGE_LOOP ( 'NONE', ( #81, #229, #259, #143 ) ) ;
#149 = AXIS2_PLACEMENT_3D ( 'NONE', #191, #208, #186 ) ;
#150 =( NAMED_UNIT ( * ) PLANE_ANGLE_UNIT ( ) SI_UNIT ( $, .RADIAN. ) );
#151 = APPROVAL_ROLE ( '' ) ;
#152 = PERSON_AND_ORGANIZATION ( #205, #321 ) ;
#153 = AXIS2_PLACEMENT_3D ( 'NONE', #317, #168, #13 ) ;
#154 = PRODUCT_DEFINITION_SHAPE ( 'NONE', 'NONE',  #136 ) ;
#155 = APPROVAL_DATE_TIME ( #305, #124 ) ;
#156 = EDGE_LOOP ( 'NONE', ( #51, #56 ) ) ;
#157 = ORIENTED_EDGE ( 'NONE', *, *, #121, .T. ) ;
#158 = ORIENTED_EDGE ( 'NONE', *, *, #184, .T. ) ;
#159 = DIRECTION ( 'NONE',  ( -1.000000000000000000, -0.000000000000000000, -0.000000000000000000 ) ) ;
#160 = EDGE_LOOP ( 'NONE', ( #16, #135 ) ) ;
#161 = DIRECTION ( 'NONE',  ( -1.000000000000000000, -0.000000000000000000, -0.000000000000000000 ) ) ;
#162 = VERTEX_POINT ( 'NONE', #80 ) ;
#163 = VECTOR ( 'NONE', #252, 1000.000000000000000 ) ;
#164 = DIRECTION ( 'NONE',  ( -1.000000000000000000, -0.000000000000000000, -0.000000000000000000 ) ) ;
#165 = FACE_OUTER_BOUND ( 'NONE', #290, .T. ) ;
#166 = DIRECTION ( 'NONE',  ( -1.000000000000000000, 0.000000000000000000, -0.000000000000000000 ) ) ;
#167 = VECTOR ( 'NONE', #272, 1000.000000000000000 ) ;
#168 = DIRECTION ( 'NONE',  ( -1.000000000000000000, -0.000000000000000000, -0.000000000000000000 ) ) ;
#169 = CC_DESIGN_PERSON_AND_ORGANIZATION_ASSIGNMENT ( #257, #228, ( #288 ) ) ;
#170 = CARTESIAN_POINT ( 'NONE',  ( 3.000000000000000000, 0.000000000000000000, 0.000000000000000000 ) ) ;
#171 = DIRECTION ( 'NONE',  ( -1.000000000000000000, -0.000000000000000000, -0.000000000000000000 ) ) ;
#172 = CIRCLE ( 'NONE', #149, 6.349999999999999645 ) ;
#173 = LOCAL_TIME ( 9, 24, 31.00000000000000000, #206 ) ;
#174 = EDGE_CURVE ( 'NONE', #233, #21, #9, .T. ) ;
#175 = DIRECTION ( 'NONE',  ( 1.000000000000000000, 0.000000000000000000, 0.000000000000000000 ) ) ;
#176 = CARTESIAN_POINT ( 'NONE',  ( -1.614212418857619014, 0.000000000000000000, 0.000000000000000000 ) ) ;
#177 = ADVANCED_FACE ( 'NONE', ( #112, #215 ), #87, .F. ) ;
#178 = VERTEX_POINT ( 'NONE', #142 ) ;
#179 = AXIS2_PLACEMENT_3D ( 'NONE', #213, #159, #313 ) ;
#180 = CC_DESIGN_SECURITY_CLASSIFICATION ( #256, ( #288 ) ) ;
#181 = PERSON_AND_ORGANIZATION ( #205, #321 ) ;
#182 = CC_DESIGN_PERSON_AND_ORGANIZATION_ASSIGNMENT ( #204, #22, ( #256 ) ) ;
#183 = DATE_AND_TIME ( #101, #274 ) ;
#184 = EDGE_CURVE ( 'NONE', #310, #301, #5, .T. ) ;
#185 = AXIS2_PLACEMENT_3D ( 'NONE', #100, #27, #330 ) ;
#186 = DIRECTION ( 'NONE',  ( 0.000000000000000000, 0.000000000000000000, 1.000000000000000000 ) ) ;
#187 = EDGE_CURVE ( 'NONE', #96, #132, #137, .T. ) ;
#188 = FACE_OUTER_BOUND ( 'NONE', #148, .T. ) ;
#189 = CARTESIAN_POINT ( 'NONE',  ( -1.614212418857619014, 0.000000000000000000, 0.000000000000000000 ) ) ;
#190 = ORIENTED_EDGE ( 'NONE', *, *, #39, .T. ) ;
#191 = CARTESIAN_POINT ( 'NONE',  ( -2.999999999999999556, 0.000000000000000000, 0.000000000000000000 ) ) ;
#192 = CARTESIAN_POINT ( 'NONE',  ( -1.614212418857619014, 0.000000000000000000, 6.349999999999999645 ) ) ;
#193 = DIRECTION ( 'NONE',  ( -1.000000000000000000, -0.000000000000000000, -0.000000000000000000 ) ) ;
#194 = EDGE_CURVE ( 'NONE', #318, #178, #172, .T. ) ;
#195 = EDGE_LOOP ( 'NONE', ( #190, #209 ) ) ;
#196 = DIRECTION ( 'NONE',  ( 0.000000000000000000, 0.000000000000000000, 1.000000000000000000 ) ) ;
#197 = EDGE_LOOP ( 'NONE', ( #90, #25 ) ) ;
#198 = AXIS2_PLACEMENT_3D ( 'NONE', #67, #220, #12 ) ;
#199 = EDGE_CURVE ( 'NONE', #132, #21, #214, .T. ) ;
#200 = CARTESIAN_POINT ( 'NONE',  ( 3.000000000000000888, 7.776507174585692163E-16, -6.349999999999999645 ) ) ;
#201 = PERSON_AND_ORGANIZATION_ROLE ( 'creator' ) ;
#202 = ORIENTED_EDGE ( 'NONE', *, *, #121, .F. ) ;
#203 = AXIS2_PLACEMENT_3D ( 'NONE', #324, #193, #281 ) ;
#204 = PERSON_AND_ORGANIZATION ( #205, #321 ) ;
#205 = PERSON ( 'UNSPECIFIED', 'UNSPECIFIED', 'UNSPECIFIED', ('UNSPECIFIED'), ('UNSPECIFIED'), ('UNSPECIFIED') ) ;
#206 = COORDINATED_UNIVERSAL_TIME_OFFSET ( 8, 0, .AHEAD. ) ;
#207 = AXIS2_PLACEMENT_3D ( 'NONE', #295, #33, #309 ) ;
#208 = DIRECTION ( 'NONE',  ( -1.000000000000000000, -0.000000000000000000, -0.000000000000000000 ) ) ;
#209 = ORIENTED_EDGE ( 'NONE', *, *, #316, .T. ) ;
#210 = DIRECTION ( 'NONE',  ( -1.000000000000000000, -0.000000000000000000, -0.000000000000000000 ) ) ;
#211 = DIRECTION ( 'NONE',  ( 0.000000000000000000, 0.000000000000000000, 1.000000000000000000 ) ) ;
#212 = ORIENTED_EDGE ( 'NONE', *, *, #262, .T. ) ;
#213 = CARTESIAN_POINT ( 'NONE',  ( -1.614212418857619014, 0.000000000000000000, 0.000000000000000000 ) ) ;
#214 = CIRCLE ( 'NONE', #79, 6.349999999999999645 ) ;
#215 = FACE_BOUND ( 'NONE', #195, .T. ) ;
#216 = ADVANCED_FACE ( 'NONE', ( #83 ), #268, .T. ) ;
#217 = CARTESIAN_POINT ( 'NONE',  ( -1.614212418857619014, 0.000000000000000000, 12.69999999999999929 ) ) ;
#218 = AXIS2_PLACEMENT_3D ( 'NONE', #189, #271, #60 ) ;
#219 = CC_DESIGN_APPROVAL ( #124, ( #288 ) ) ;
#220 = DIRECTION ( 'NONE',  ( 1.000000000000000000, 0.000000000000000000, 0.000000000000000000 ) ) ;
#221 = VERTEX_POINT ( 'NONE', #247 ) ;
#222 = PLANE ( 'NONE',  #267 ) ;
#223 = LINE ( 'NONE', #217, #163 ) ;
#224 = AXIS2_PLACEMENT_3D ( 'NONE', #297, #119, #65 ) ;
#225 = COORDINATED_UNIVERSAL_TIME_OFFSET ( 8, 0, .AHEAD. ) ;
#226 = CC_DESIGN_PERSON_AND_ORGANIZATION_ASSIGNMENT ( #72, #201, ( #136 ) ) ;
#227 =( NAMED_UNIT ( * ) SI_UNIT ( $, .STERADIAN. ) SOLID_ANGLE_UNIT ( ) );
#228 = PERSON_AND_ORGANIZATION_ROLE ( 'design_supplier' ) ;
#229 = ORIENTED_EDGE ( 'NONE', *, *, #315, .T. ) ;
#230 = AXIS2_PLACEMENT_3D ( 'NONE', #105, #164, #211 ) ;
#231 = PERSON_AND_ORGANIZATION ( #205, #321 ) ;
#232 = MANIFOLD_SOLID_BREP ( 'Ðý×', #116 ) ;
#233 = VERTEX_POINT ( 'NONE', #200 ) ;
#234 = CALENDAR_DATE ( 2020, 23, 12 ) ;
#235 = ORIENTED_EDGE ( 'NONE', *, *, #262, .F. ) ;
#236 = DIRECTION ( 'NONE',  ( 0.000000000000000000, 0.000000000000000000, 1.000000000000000000 ) ) ;
#237 = LOCAL_TIME ( 9, 24, 31.00000000000000000, #225 ) ;
#238 = DIRECTION ( 'NONE',  ( -1.000000000000000000, -0.000000000000000000, -0.000000000000000000 ) ) ;
#239 = CARTESIAN_POINT ( 'NONE',  ( 3.000000000000000888, 0.000000000000000000, 0.000000000000000000 ) ) ;
#240 = APPROVAL ( #260, 'UNSPECIFIED' ) ;
#241 = CARTESIAN_POINT ( 'NONE',  ( 1.500000000000000888, 0.000000000000000000, 0.000000000000000000 ) ) ;
#242 = ORIENTED_EDGE ( 'NONE', *, *, #199, .T. ) ;
#243 = FACE_OUTER_BOUND ( 'NONE', #307, .T. ) ;
#244 = DIRECTION ( 'NONE',  ( 0.000000000000000000, 0.000000000000000000, 1.000000000000000000 ) ) ;
#245 = APPROVAL_PERSON_ORGANIZATION ( #300, #240, #151 ) ;
#246 = EDGE_CURVE ( 'NONE', #269, #162, #326, .T. ) ;
#247 = CARTESIAN_POINT ( 'NONE',  ( -3.000000000000000000, 0.000000000000000000, 12.69999999999999929 ) ) ;
#248 = CC_DESIGN_PERSON_AND_ORGANIZATION_ASSIGNMENT ( #152, #128, ( #288 ) ) ;
#249 = CARTESIAN_POINT ( 'NONE',  ( -3.000000000000000000, 6.349999999999999645, 0.000000000000000000 ) ) ;
#250 = DIRECTION ( 'NONE',  ( 0.000000000000000000, 0.000000000000000000, 1.000000000000000000 ) ) ;
#251 = ORIENTED_EDGE ( 'NONE', *, *, #147, .F. ) ;
#252 = DIRECTION ( 'NONE',  ( -1.000000000000000000, -0.000000000000000000, -0.000000000000000000 ) ) ;
#253 = DIRECTION ( 'NONE',  ( -1.000000000000000000, -0.000000000000000000, -0.000000000000000000 ) ) ;
#254 = DATE_TIME_ROLE ( 'classification_date' ) ;
#255 = ADVANCED_FACE ( 'NONE', ( #71, #120 ), #222, .F. ) ;
#256 = SECURITY_CLASSIFICATION ( '', '', #335 ) ;
#257 = PERSON_AND_ORGANIZATION ( #205, #321 ) ;
#258 = COORDINATED_UNIVERSAL_TIME_OFFSET ( 8, 0, .AHEAD. ) ;
#259 = ORIENTED_EDGE ( 'NONE', *, *, #294, .T. ) ;
#260 = APPROVAL_STATUS ( 'not_yet_approved' ) ;
#261 = PERSON_AND_ORGANIZATION ( #205, #321 ) ;
#262 = EDGE_CURVE ( 'NONE', #49, #221, #223, .T. ) ;
#263 = ORIENTED_EDGE ( 'NONE', *, *, #316, .F. ) ;
#264 = CARTESIAN_POINT ( 'NONE',  ( 3.000000000000000000, 12.69999999999999929, 0.000000000000000000 ) ) ;
#265 = ORIENTED_EDGE ( 'NONE', *, *, #44, .T. ) ;
#266 = PRODUCT_RELATED_PRODUCT_CATEGORY ( 'detail', '', ( #125 ) ) ;
#267 = AXIS2_PLACEMENT_3D ( 'NONE', #249, #68, #69 ) ;
#268 = CYLINDRICAL_SURFACE ( 'NONE', #36, 12.69999999999999929 ) ;
#269 = VERTEX_POINT ( 'NONE', #43 ) ;
#270 = DIRECTION ( 'NONE',  ( 0.000000000000000000, 0.000000000000000000, 1.000000000000000000 ) ) ;
#271 = DIRECTION ( 'NONE',  ( -1.000000000000000000, -0.000000000000000000, -0.000000000000000000 ) ) ;
#272 = DIRECTION ( 'NONE',  ( -1.000000000000000000, -0.000000000000000000, -0.000000000000000000 ) ) ;
#273 = CIRCLE ( 'NONE', #207, 12.69999999999999929 ) ;
#274 = LOCAL_TIME ( 9, 24, 31.00000000000000000, #258 ) ;
#275 = ADVANCED_FACE ( 'NONE', ( #115 ), #319, .F. ) ;
#276 = CARTESIAN_POINT ( 'NONE',  ( 1.500000000000000444, 6.349999999999999645, 0.000000000000000000 ) ) ;
#277 = CARTESIAN_POINT ( 'NONE',  ( -2.999999999999999556, 0.000000000000000000, 6.349999999999999645 ) ) ;
#278 = ORIENTED_EDGE ( 'NONE', *, *, #39, .F. ) ;
#279 = FACE_OUTER_BOUND ( 'NONE', #76, .T. ) ;
#280 = DIRECTION ( 'NONE',  ( 0.000000000000000000, 0.000000000000000000, -1.000000000000000000 ) ) ;
#281 = DIRECTION ( 'NONE',  ( 0.000000000000000000, 0.000000000000000000, 1.000000000000000000 ) ) ;
#282 = ADVANCED_FACE ( 'NONE', ( #45 ), #97, .F. ) ;
#283 = DATE_TIME_ROLE ( 'creation_date' ) ;
#284 = CIRCLE ( 'NONE', #122, 6.349999999999999645 ) ;
#285 = PERSON_AND_ORGANIZATION_ROLE ( 'design_owner' ) ;
#286 = ORIENTED_EDGE ( 'NONE', *, *, #187, .F. ) ;
#287 = AXIS2_PLACEMENT_3D ( 'NONE', #264, #166, #111 ) ;
#288 = PRODUCT_DEFINITION_FORMATION_WITH_SPECIFIED_SOURCE ( 'ANY', '', #125, .NOT_KNOWN. ) ;
#289 = FACE_OUTER_BOUND ( 'NONE', #28, .T. ) ;
#290 = EDGE_LOOP ( 'NONE', ( #304, #2, #265, #75 ) ) ;
#291 = VECTOR ( 'NONE', #38, 1000.000000000000000 ) ;
#292 = DIRECTION ( 'NONE',  ( -1.000000000000000000, -0.000000000000000000, -0.000000000000000000 ) ) ;
#293 = DIRECTION ( 'NONE',  ( -1.000000000000000000, -0.000000000000000000, -0.000000000000000000 ) ) ;
#294 = EDGE_CURVE ( 'NONE', #269, #318, #94, .T. ) ;
#295 = CARTESIAN_POINT ( 'NONE',  ( 3.000000000000000000, 0.000000000000000000, 0.000000000000000000 ) ) ;
#296 = CARTESIAN_POINT ( 'NONE',  ( -1.614212418857619014, 0.000000000000000000, 6.349999999999999645 ) ) ;
#297 = CARTESIAN_POINT ( 'NONE',  ( -1.500000000000000444, 0.000000000000000000, 0.000000000000000000 ) ) ;
#298 = EDGE_CURVE ( 'NONE', #301, #221, #3, .T. ) ;
#299 = ADVANCED_FACE ( 'NONE', ( #279 ), #325, .F. ) ;
#300 = PERSON_AND_ORGANIZATION ( #205, #321 ) ;
#301 = VERTEX_POINT ( 'NONE', #42 ) ;
#302 = CIRCLE ( 'NONE', #102, 12.69999999999999929 ) ;
#303 = APPROVAL_ROLE ( '' ) ;
#304 = ORIENTED_EDGE ( 'NONE', *, *, #246, .T. ) ;
#305 = DATE_AND_TIME ( #234, #37 ) ;
#306 = ORIENTED_EDGE ( 'NONE', *, *, #54, .T. ) ;
#307 = EDGE_LOOP ( 'NONE', ( #106, #158, #251, #235 ) ) ;
#308 = CIRCLE ( 'NONE', #141, 6.349999999999999645 ) ;
#309 = DIRECTION ( 'NONE',  ( 0.000000000000000000, 0.000000000000000000, 1.000000000000000000 ) ) ;
#310 = VERTEX_POINT ( 'NONE', #118 ) ;
#311 = CYLINDRICAL_SURFACE ( 'NONE', #230, 6.349999999999999645 ) ;
#312 = EDGE_LOOP ( 'NONE', ( #323, #202 ) ) ;
#313 = DIRECTION ( 'NONE',  ( 0.000000000000000000, 0.000000000000000000, 1.000000000000000000 ) ) ;
#314 = CYLINDRICAL_SURFACE ( 'NONE', #333, 6.349999999999999645 ) ;
#315 = EDGE_CURVE ( 'NONE', #162, #269, #10, .T. ) ;
#316 = EDGE_CURVE ( 'NONE', #233, #96, #308, .T. ) ;
#317 = CARTESIAN_POINT ( 'NONE',  ( -3.000000000000000000, 0.000000000000000000, 0.000000000000000000 ) ) ;
#318 = VERTEX_POINT ( 'NONE', #277 ) ;
#319 = CYLINDRICAL_SURFACE ( 'NONE', #203, 6.349999999999999645 ) ;
#320 = APPROVAL ( #334, 'UNSPECIFIED' ) ;
#321 = ORGANIZATION ( 'UNSPECIFIED', 'UNSPECIFIED', '' ) ;
#322 =( LENGTH_UNIT ( ) NAMED_UNIT ( * ) SI_UNIT ( .MILLI., .METRE. ) );
#323 = ORIENTED_EDGE ( 'NONE', *, *, #328, .F. ) ;
#324 = CARTESIAN_POINT ( 'NONE',  ( -1.614212418857619014, 0.000000000000000000, 0.000000000000000000 ) ) ;
#325 = PLANE ( 'NONE',  #59 ) ;
#326 = CIRCLE ( 'NONE', #224, 6.349999999999999645 ) ;
#327 = CC_DESIGN_APPROVAL ( #320, ( #256 ) ) ;
#328 = EDGE_CURVE ( 'NONE', #49, #310, #70, .T. ) ;
#329 = DATE_AND_TIME ( #77, #237 ) ;
#330 = DIRECTION ( 'NONE',  ( 1.000000000000000000, 0.000000000000000000, 0.000000000000000000 ) ) ;
#331 = ORIENTED_EDGE ( 'NONE', *, *, #298, .F. ) ;
#332 = CALENDAR_DATE ( 2020, 23, 12 ) ;
#333 = AXIS2_PLACEMENT_3D ( 'NONE', #32, #86, #236 ) ;
#334 = APPROVAL_STATUS ( 'not_yet_approved' ) ;
#335 = SECURITY_CLASSIFICATION_LEVEL ( 'unclassified' ) ;
ENDSEC;
END-ISO-10303-21;
